ISO-10303-21;
HEADER;
FILE_DESCRIPTION( ( 'STEP fÃ¼r Lieferant' ), '1' );
FILE_NAME( 'X:/SolidEdge/Models/Drucksensorik/Pxxx/Zubehör/Einschweissmuffen/STEP/10324476.stp', '14.11..2018', ( 'bod' ), ( 'Baumer Electric AG, CH-8501 Frauenfeld' ), 'PSStep 19.0.9', 'SolidEdge ST9', '  ' );
FILE_SCHEMA( ( 'AUTOMOTIVE_DESIGN { 1 0 10303 214 1 1 1 1 }' ) );
ENDSEC;
DATA;
#1 = MECHANICAL_DESIGN_GEOMETRIC_PRESENTATION_REPRESENTATION( ' ', ( #10, #11, #12, #13, #14, #15, #16, #17, #18, #19 ), #6 );
#2 = PRODUCT_DEFINITION_CONTEXT( '', #20, 'design' );
#3 = APPLICATION_PROTOCOL_DEFINITION( 'international standard', 'automotive_design', 2001, #20 );
#4 = PRODUCT_CATEGORY_RELATIONSHIP( 'NONE', 'NONE', #21, #22 );
#5 = SHAPE_DEFINITION_REPRESENTATION( #23, #24 );
#6 =  ( GEOMETRIC_REPRESENTATION_CONTEXT( 3 )GLOBAL_UNCERTAINTY_ASSIGNED_CONTEXT( ( #27 ) )GLOBAL_UNIT_ASSIGNED_CONTEXT( ( #29, #30, #31 ) )REPRESENTATION_CONTEXT( 'NONE', 'WORKSPACE' ) );
#10 = STYLED_ITEM( '', ( #33 ), #34 );
#11 = STYLED_ITEM( '', ( #35 ), #36 );
#12 = STYLED_ITEM( '', ( #37 ), #38 );
#13 = STYLED_ITEM( '', ( #39 ), #40 );
#14 = STYLED_ITEM( '', ( #41 ), #42 );
#15 = STYLED_ITEM( '', ( #43 ), #44 );
#16 = STYLED_ITEM( '', ( #45 ), #46 );
#17 = STYLED_ITEM( '', ( #47 ), #48 );
#18 = STYLED_ITEM( '', ( #49 ), #50 );
#19 = STYLED_ITEM( '', ( #51 ), #52 );
#20 = APPLICATION_CONTEXT( 'core data for automotive mechanical design processes' );
#21 = PRODUCT_CATEGORY( 'part', 'NONE' );
#22 = PRODUCT_RELATED_PRODUCT_CATEGORY( 'detail', ' ', ( #53 ) );
#23 = PRODUCT_DEFINITION_SHAPE( 'NONE', 'NONE', #54 );
#24 = ADVANCED_BREP_SHAPE_REPRESENTATION( '1', ( #55, #56 ), #6 );
#27 = UNCERTAINTY_MEASURE_WITH_UNIT( LENGTH_MEASURE( 0.00100000000000000 ), #29, '', '' );
#29 =  ( CONVERSION_BASED_UNIT( 'MILLIMETRE', #59 )LENGTH_UNIT(  )NAMED_UNIT( #62 ) );
#30 =  ( NAMED_UNIT( #64 )PLANE_ANGLE_UNIT(  )SI_UNIT( $, .RADIAN. ) );
#31 =  ( NAMED_UNIT( #64 )SI_UNIT( $, .STERADIAN. )SOLID_ANGLE_UNIT(  ) );
#33 = PRESENTATION_STYLE_ASSIGNMENT( ( #70 ) );
#34 = ADVANCED_FACE( '', ( #71, #72 ), #73, .T. );
#35 = PRESENTATION_STYLE_ASSIGNMENT( ( #74 ) );
#36 = ADVANCED_FACE( '', ( #75, #76 ), #77, .F. );
#37 = PRESENTATION_STYLE_ASSIGNMENT( ( #78 ) );
#38 = ADVANCED_FACE( '', ( #79, #80 ), #81, .T. );
#39 = PRESENTATION_STYLE_ASSIGNMENT( ( #82 ) );
#40 = ADVANCED_FACE( '', ( #83, #84 ), #85, .F. );
#41 = PRESENTATION_STYLE_ASSIGNMENT( ( #86 ) );
#42 = ADVANCED_FACE( '', ( #87, #88 ), #89, .F. );
#43 = PRESENTATION_STYLE_ASSIGNMENT( ( #90 ) );
#44 = ADVANCED_FACE( '', ( #91, #92 ), #93, .T. );
#45 = PRESENTATION_STYLE_ASSIGNMENT( ( #94 ) );
#46 = ADVANCED_FACE( '', ( #95, #96 ), #97, .F. );
#47 = PRESENTATION_STYLE_ASSIGNMENT( ( #98 ) );
#48 = ADVANCED_FACE( '', ( #99, #100 ), #101, .F. );
#49 = PRESENTATION_STYLE_ASSIGNMENT( ( #102 ) );
#50 = ADVANCED_FACE( '', ( #103, #104 ), #105, .F. );
#51 = PRESENTATION_STYLE_ASSIGNMENT( ( #106 ) );
#52 = ADVANCED_FACE( '', ( #107, #108 ), #109, .F. );
#53 = PRODUCT( '1', '1', 'PART-1-DESC', ( #110 ) );
#54 = PRODUCT_DEFINITION( 'NONE', 'NONE', #111, #2 );
#55 = MANIFOLD_SOLID_BREP( '1', #112 );
#56 = AXIS2_PLACEMENT_3D( '', #113, #114, #115 );
#59 = LENGTH_MEASURE_WITH_UNIT( LENGTH_MEASURE( 1.00000000000000 ), #116 );
#62 = DIMENSIONAL_EXPONENTS( 1.00000000000000, 0.000000000000000, 0.000000000000000, 0.000000000000000, 0.000000000000000, 0.000000000000000, 0.000000000000000 );
#64 = DIMENSIONAL_EXPONENTS( 0.000000000000000, 0.000000000000000, 0.000000000000000, 0.000000000000000, 0.000000000000000, 0.000000000000000, 0.000000000000000 );
#70 = SURFACE_STYLE_USAGE( .BOTH., #117 );
#71 = FACE_BOUND( '', #118, .T. );
#72 = FACE_OUTER_BOUND( '', #119, .T. );
#73 = CONICAL_SURFACE( '', #120, 30.0000000000000, 0.785398163400000 );
#74 = SURFACE_STYLE_USAGE( .BOTH., #121 );
#75 = FACE_OUTER_BOUND( '', #122, .T. );
#76 = FACE_OUTER_BOUND( '', #123, .T. );
#77 = CYLINDRICAL_SURFACE( '', #124, 9.31550000000000 );
#78 = SURFACE_STYLE_USAGE( .BOTH., #125 );
#79 = FACE_OUTER_BOUND( '', #126, .T. );
#80 = FACE_BOUND( '', #127, .T. );
#81 = CONICAL_SURFACE( '', #128, 29.0000000000000, 0.785398163400000 );
#82 = SURFACE_STYLE_USAGE( .BOTH., #129 );
#83 = FACE_OUTER_BOUND( '', #130, .T. );
#84 = FACE_OUTER_BOUND( '', #131, .T. );
#85 = CYLINDRICAL_SURFACE( '', #132, 9.02000000000000 );
#86 = SURFACE_STYLE_USAGE( .BOTH., #133 );
#87 = FACE_OUTER_BOUND( '', #134, .T. );
#88 = FACE_BOUND( '', #135, .T. );
#89 = PLANE( '', #136 );
#90 = SURFACE_STYLE_USAGE( .BOTH., #137 );
#91 = FACE_OUTER_BOUND( '', #138, .T. );
#92 = FACE_OUTER_BOUND( '', #139, .T. );
#93 = CYLINDRICAL_SURFACE( '', #140, 30.0000000000000 );
#94 = SURFACE_STYLE_USAGE( .BOTH., #141 );
#95 = FACE_OUTER_BOUND( '', #142, .T. );
#96 = FACE_OUTER_BOUND( '', #143, .T. );
#97 = CYLINDRICAL_SURFACE( '', #144, 9.31550000000000 );
#98 = SURFACE_STYLE_USAGE( .BOTH., #145 );
#99 = FACE_BOUND( '', #146, .T. );
#100 = FACE_OUTER_BOUND( '', #147, .T. );
#101 = CONICAL_SURFACE( '', #148, 9.31550000000000, 0.349065850400000 );
#102 = SURFACE_STYLE_USAGE( .BOTH., #149 );
#103 = FACE_BOUND( '', #150, .T. );
#104 = FACE_OUTER_BOUND( '', #151, .T. );
#105 = CONICAL_SURFACE( '', #152, 10.6155000000000, 0.785398163400000 );
#106 = SURFACE_STYLE_USAGE( .BOTH., #153 );
#107 = FACE_BOUND( '', #154, .T. );
#108 = FACE_OUTER_BOUND( '', #155, .T. );
#109 = PLANE( '', #156 );
#110 = PRODUCT_CONTEXT( '', #20, 'mechanical' );
#111 = PRODUCT_DEFINITION_FORMATION_WITH_SPECIFIED_SOURCE( ' ', 'NONE', #53, .NOT_KNOWN. );
#112 = CLOSED_SHELL( '', ( #42, #36, #44, #34, #38, #48, #40, #46, #52, #50 ) );
#113 = CARTESIAN_POINT( '', ( 0.000000000000000, 0.000000000000000, 0.000000000000000 ) );
#114 = DIRECTION( '', ( 0.000000000000000, 0.000000000000000, 1.00000000000000 ) );
#115 = DIRECTION( '', ( 1.00000000000000, 0.000000000000000, 0.000000000000000 ) );
#116 =  ( LENGTH_UNIT(  )NAMED_UNIT( #62 )SI_UNIT( .MILLI., .METRE. ) );
#117 = SURFACE_SIDE_STYLE( '', ( #158 ) );
#118 = EDGE_LOOP( '', ( #159 ) );
#119 = EDGE_LOOP( '', ( #160 ) );
#120 = AXIS2_PLACEMENT_3D( '', #161, #162, #163 );
#121 = SURFACE_SIDE_STYLE( '', ( #164 ) );
#122 = EDGE_LOOP( '', ( #165 ) );
#123 = EDGE_LOOP( '', ( #166 ) );
#124 = AXIS2_PLACEMENT_3D( '', #167, #168, #169 );
#125 = SURFACE_SIDE_STYLE( '', ( #170 ) );
#126 = EDGE_LOOP( '', ( #171 ) );
#127 = EDGE_LOOP( '', ( #172 ) );
#128 = AXIS2_PLACEMENT_3D( '', #173, #174, #175 );
#129 = SURFACE_SIDE_STYLE( '', ( #176 ) );
#130 = EDGE_LOOP( '', ( #177 ) );
#131 = EDGE_LOOP( '', ( #178 ) );
#132 = AXIS2_PLACEMENT_3D( '', #179, #180, #181 );
#133 = SURFACE_SIDE_STYLE( '', ( #182 ) );
#134 = EDGE_LOOP( '', ( #183 ) );
#135 = EDGE_LOOP( '', ( #184 ) );
#136 = AXIS2_PLACEMENT_3D( '', #185, #186, #187 );
#137 = SURFACE_SIDE_STYLE( '', ( #188 ) );
#138 = EDGE_LOOP( '', ( #189 ) );
#139 = EDGE_LOOP( '', ( #190 ) );
#140 = AXIS2_PLACEMENT_3D( '', #191, #192, #193 );
#141 = SURFACE_SIDE_STYLE( '', ( #194 ) );
#142 = EDGE_LOOP( '', ( #195 ) );
#143 = EDGE_LOOP( '', ( #196 ) );
#144 = AXIS2_PLACEMENT_3D( '', #197, #198, #199 );
#145 = SURFACE_SIDE_STYLE( '', ( #200 ) );
#146 = EDGE_LOOP( '', ( #201 ) );
#147 = EDGE_LOOP( '', ( #202 ) );
#148 = AXIS2_PLACEMENT_3D( '', #203, #204, #205 );
#149 = SURFACE_SIDE_STYLE( '', ( #206 ) );
#150 = EDGE_LOOP( '', ( #207 ) );
#151 = EDGE_LOOP( '', ( #208 ) );
#152 = AXIS2_PLACEMENT_3D( '', #209, #210, #211 );
#153 = SURFACE_SIDE_STYLE( '', ( #212 ) );
#154 = EDGE_LOOP( '', ( #213 ) );
#155 = EDGE_LOOP( '', ( #214 ) );
#156 = AXIS2_PLACEMENT_3D( '', #215, #216, #217 );
#158 = SURFACE_STYLE_FILL_AREA( #218 );
#159 = ORIENTED_EDGE( '', *, *, #219, .F. );
#160 = ORIENTED_EDGE( '', *, *, #220, .F. );
#161 = CARTESIAN_POINT( '', ( 0.000000000000000, 0.000000000000000, 18.5000000000000 ) );
#162 = DIRECTION( '', ( -0.000000000000000, 0.000000000000000, -1.00000000000000 ) );
#163 = DIRECTION( '', ( -1.00000000000000, 0.000000000000000, 0.000000000000000 ) );
#164 = SURFACE_STYLE_FILL_AREA( #221 );
#165 = ORIENTED_EDGE( '', *, *, #222, .F. );
#166 = ORIENTED_EDGE( '', *, *, #223, .T. );
#167 = CARTESIAN_POINT( '', ( 0.000000000000000, 0.000000000000000, 20.5000000000000 ) );
#168 = DIRECTION( '', ( -0.000000000000000, -0.000000000000000, 1.00000000000000 ) );
#169 = DIRECTION( '', ( 0.000000000000000, -1.00000000000000, 0.000000000000000 ) );
#170 = SURFACE_STYLE_FILL_AREA( #224 );
#171 = ORIENTED_EDGE( '', *, *, #225, .F. );
#172 = ORIENTED_EDGE( '', *, *, #226, .F. );
#173 = CARTESIAN_POINT( '', ( 0.000000000000000, 0.000000000000000, 0.000000000000000 ) );
#174 = DIRECTION( '', ( -0.000000000000000, -0.000000000000000, 1.00000000000000 ) );
#175 = DIRECTION( '', ( 1.00000000000000, 0.000000000000000, 0.000000000000000 ) );
#176 = SURFACE_STYLE_FILL_AREA( #227 );
#177 = ORIENTED_EDGE( '', *, *, #228, .T. );
#178 = ORIENTED_EDGE( '', *, *, #229, .F. );
#179 = CARTESIAN_POINT( '', ( 0.000000000000000, 0.000000000000000, 13.5000000000000 ) );
#180 = DIRECTION( '', ( -0.000000000000000, -0.000000000000000, 1.00000000000000 ) );
#181 = DIRECTION( '', ( -1.00000000000000, 0.000000000000000, 0.000000000000000 ) );
#182 = SURFACE_STYLE_FILL_AREA( #230 );
#183 = ORIENTED_EDGE( '', *, *, #226, .T. );
#184 = ORIENTED_EDGE( '', *, *, #228, .F. );
#185 = CARTESIAN_POINT( '', ( -30.0000000000000, 0.000000000000000, 0.000000000000000 ) );
#186 = DIRECTION( '', ( 0.000000000000000, 0.000000000000000, 1.00000000000000 ) );
#187 = DIRECTION( '', ( 1.00000000000000, 0.000000000000000, 0.000000000000000 ) );
#188 = SURFACE_STYLE_FILL_AREA( #231 );
#189 = ORIENTED_EDGE( '', *, *, #225, .T. );
#190 = ORIENTED_EDGE( '', *, *, #220, .T. );
#191 = CARTESIAN_POINT( '', ( 0.000000000000000, 0.000000000000000, 13.5000000000000 ) );
#192 = DIRECTION( '', ( -0.000000000000000, -0.000000000000000, 1.00000000000000 ) );
#193 = DIRECTION( '', ( -1.00000000000000, 0.000000000000000, 0.000000000000000 ) );
#194 = SURFACE_STYLE_FILL_AREA( #232 );
#195 = ORIENTED_EDGE( '', *, *, #233, .T. );
#196 = ORIENTED_EDGE( '', *, *, #223, .F. );
#197 = CARTESIAN_POINT( '', ( 0.000000000000000, 0.000000000000000, 20.5000000000000 ) );
#198 = DIRECTION( '', ( -0.000000000000000, -0.000000000000000, 1.00000000000000 ) );
#199 = DIRECTION( '', ( 0.000000000000000, -1.00000000000000, 0.000000000000000 ) );
#200 = SURFACE_STYLE_FILL_AREA( #234 );
#201 = ORIENTED_EDGE( '', *, *, #229, .T. );
#202 = ORIENTED_EDGE( '', *, *, #222, .T. );
#203 = CARTESIAN_POINT( '', ( 0.000000000000000, 0.000000000000000, 7.50000000000000 ) );
#204 = DIRECTION( '', ( -0.000000000000000, -0.000000000000000, 1.00000000000000 ) );
#205 = DIRECTION( '', ( 1.00000000000000, 0.000000000000000, 0.000000000000000 ) );
#206 = SURFACE_STYLE_FILL_AREA( #235 );
#207 = ORIENTED_EDGE( '', *, *, #233, .F. );
#208 = ORIENTED_EDGE( '', *, *, #236, .F. );
#209 = CARTESIAN_POINT( '', ( 0.000000000000000, 0.000000000000000, 20.5000000000000 ) );
#210 = DIRECTION( '', ( -0.000000000000000, -0.000000000000000, 1.00000000000000 ) );
#211 = DIRECTION( '', ( 1.00000000000000, 0.000000000000000, 0.000000000000000 ) );
#212 = SURFACE_STYLE_FILL_AREA( #237 );
#213 = ORIENTED_EDGE( '', *, *, #236, .T. );
#214 = ORIENTED_EDGE( '', *, *, #219, .T. );
#215 = CARTESIAN_POINT( '', ( 0.000000000000000, 0.000000000000000, 20.5000000000000 ) );
#216 = DIRECTION( '', ( 0.000000000000000, 0.000000000000000, -1.00000000000000 ) );
#217 = DIRECTION( '', ( -1.00000000000000, 0.000000000000000, 0.000000000000000 ) );
#218 = FILL_AREA_STYLE( '', ( #238 ) );
#219 = EDGE_CURVE( '', #239, #239, #240, .F. );
#220 = EDGE_CURVE( '', #241, #241, #242, .T. );
#221 = FILL_AREA_STYLE( '', ( #243 ) );
#222 = EDGE_CURVE( '', #244, #244, #245, .T. );
#223 = EDGE_CURVE( '', #246, #246, #247, .T. );
#224 = FILL_AREA_STYLE( '', ( #248 ) );
#225 = EDGE_CURVE( '', #249, #249, #250, .T. );
#226 = EDGE_CURVE( '', #251, #251, #252, .F. );
#227 = FILL_AREA_STYLE( '', ( #253 ) );
#228 = EDGE_CURVE( '', #254, #254, #255, .T. );
#229 = EDGE_CURVE( '', #256, #256, #257, .T. );
#230 = FILL_AREA_STYLE( '', ( #258 ) );
#231 = FILL_AREA_STYLE( '', ( #259 ) );
#232 = FILL_AREA_STYLE( '', ( #260 ) );
#233 = EDGE_CURVE( '', #261, #261, #262, .F. );
#234 = FILL_AREA_STYLE( '', ( #263 ) );
#235 = FILL_AREA_STYLE( '', ( #264 ) );
#236 = EDGE_CURVE( '', #265, #265, #266, .T. );
#237 = FILL_AREA_STYLE( '', ( #267 ) );
#238 = FILL_AREA_STYLE_COLOUR( '', #268 );
#239 = VERTEX_POINT( '', #269 );
#240 = CIRCLE( '', #270, 28.0000000000000 );
#241 = VERTEX_POINT( '', #271 );
#242 = CIRCLE( '', #272, 30.0000000000000 );
#243 = FILL_AREA_STYLE_COLOUR( '', #273 );
#244 = VERTEX_POINT( '', #274 );
#245 = CIRCLE( '', #275, 9.31550000000000 );
#246 = VERTEX_POINT( '', #276 );
#247 = CIRCLE( '', #277, 9.31550000000000 );
#248 = FILL_AREA_STYLE_COLOUR( '', #278 );
#249 = VERTEX_POINT( '', #279 );
#250 = CIRCLE( '', #280, 30.0000000000000 );
#251 = VERTEX_POINT( '', #281 );
#252 = CIRCLE( '', #282, 29.0000000000000 );
#253 = FILL_AREA_STYLE_COLOUR( '', #283 );
#254 = VERTEX_POINT( '', #284 );
#255 = CIRCLE( '', #285, 9.02000000000000 );
#256 = VERTEX_POINT( '', #286 );
#257 = CIRCLE( '', #287, 9.02000000000000 );
#258 = FILL_AREA_STYLE_COLOUR( '', #288 );
#259 = FILL_AREA_STYLE_COLOUR( '', #289 );
#260 = FILL_AREA_STYLE_COLOUR( '', #290 );
#261 = VERTEX_POINT( '', #291 );
#262 = CIRCLE( '', #292, 9.31550000000000 );
#263 = FILL_AREA_STYLE_COLOUR( '', #293 );
#264 = FILL_AREA_STYLE_COLOUR( '', #294 );
#265 = VERTEX_POINT( '', #295 );
#266 = CIRCLE( '', #296, 10.6155000000000 );
#267 = FILL_AREA_STYLE_COLOUR( '', #297 );
#268 = COLOUR_RGB( '', 0.686274528500000, 0.768627464800000, 0.866666674600000 );
#269 = CARTESIAN_POINT( '', ( -28.0000000000000, 0.000000000000000, 20.5000000000000 ) );
#270 = AXIS2_PLACEMENT_3D( '', #298, #299, #300 );
#271 = CARTESIAN_POINT( '', ( -30.0000000000000, 0.000000000000000, 18.5000000000000 ) );
#272 = AXIS2_PLACEMENT_3D( '', #301, #302, #303 );
#273 = COLOUR_RGB( '', 0.686274528500000, 0.768627464800000, 0.866666674600000 );
#274 = CARTESIAN_POINT( '', ( 0.000000000000000, -9.31550000000000, 7.50000000000000 ) );
#275 = AXIS2_PLACEMENT_3D( '', #304, #305, #306 );
#276 = CARTESIAN_POINT( '', ( 0.000000000000000, -9.31550000000000, 8.50000000000000 ) );
#277 = AXIS2_PLACEMENT_3D( '', #307, #308, #309 );
#278 = COLOUR_RGB( '', 0.686274528500000, 0.768627464800000, 0.866666674600000 );
#279 = CARTESIAN_POINT( '', ( 30.0000000000000, 0.000000000000000, 1.00000000000000 ) );
#280 = AXIS2_PLACEMENT_3D( '', #310, #311, #312 );
#281 = CARTESIAN_POINT( '', ( 29.0000000000000, 0.000000000000000, 0.000000000000000 ) );
#282 = AXIS2_PLACEMENT_3D( '', #313, #314, #315 );
#283 = COLOUR_RGB( '', 0.686274528500000, 0.768627464800000, 0.866666674600000 );
#284 = CARTESIAN_POINT( '', ( -9.02000000000000, 0.000000000000000, 0.000000000000000 ) );
#285 = AXIS2_PLACEMENT_3D( '', #316, #317, #318 );
#286 = CARTESIAN_POINT( '', ( -9.02000000000000, 0.000000000000000, 6.68812042255117 ) );
#287 = AXIS2_PLACEMENT_3D( '', #319, #320, #321 );
#288 = COLOUR_RGB( '', 0.686274528500000, 0.768627464800000, 0.866666674600000 );
#289 = COLOUR_RGB( '', 0.686274528500000, 0.768627464800000, 0.866666674600000 );
#290 = COLOUR_RGB( '', 0.396078437600000, 0.941176474100000, 0.450980395100000 );
#291 = CARTESIAN_POINT( '', ( -9.31550000000000, 0.000000000000000, 19.2000000000000 ) );
#292 = AXIS2_PLACEMENT_3D( '', #322, #323, #324 );
#293 = COLOUR_RGB( '', 0.686274528500000, 0.768627464800000, 0.866666674600000 );
#294 = COLOUR_RGB( '', 0.686274528500000, 0.768627464800000, 0.866666674600000 );
#295 = CARTESIAN_POINT( '', ( -10.6155000000000, 0.000000000000000, 20.5000000000000 ) );
#296 = AXIS2_PLACEMENT_3D( '', #325, #326, #327 );
#297 = COLOUR_RGB( '', 0.686274528500000, 0.768627464800000, 0.866666674600000 );
#298 = CARTESIAN_POINT( '', ( 0.000000000000000, 0.000000000000000, 20.5000000000000 ) );
#299 = DIRECTION( '', ( 0.000000000000000, 0.000000000000000, -1.00000000000000 ) );
#300 = DIRECTION( '', ( -1.00000000000000, 0.000000000000000, 0.000000000000000 ) );
#301 = CARTESIAN_POINT( '', ( 0.000000000000000, 0.000000000000000, 18.5000000000000 ) );
#302 = DIRECTION( '', ( 0.000000000000000, 0.000000000000000, -1.00000000000000 ) );
#303 = DIRECTION( '', ( -1.00000000000000, 0.000000000000000, 0.000000000000000 ) );
#304 = CARTESIAN_POINT( '', ( 0.000000000000000, 0.000000000000000, 7.50000000000000 ) );
#305 = DIRECTION( '', ( 0.000000000000000, 0.000000000000000, 1.00000000000000 ) );
#306 = DIRECTION( '', ( 0.000000000000000, -1.00000000000000, 0.000000000000000 ) );
#307 = CARTESIAN_POINT( '', ( 0.000000000000000, 0.000000000000000, 8.50000000000000 ) );
#308 = DIRECTION( '', ( 0.000000000000000, 0.000000000000000, 1.00000000000000 ) );
#309 = DIRECTION( '', ( 0.000000000000000, -1.00000000000000, 0.000000000000000 ) );
#310 = CARTESIAN_POINT( '', ( 0.000000000000000, 0.000000000000000, 1.00000000000000 ) );
#311 = DIRECTION( '', ( 0.000000000000000, 0.000000000000000, 1.00000000000000 ) );
#312 = DIRECTION( '', ( 1.00000000000000, 0.000000000000000, 0.000000000000000 ) );
#313 = CARTESIAN_POINT( '', ( 0.000000000000000, 0.000000000000000, 0.000000000000000 ) );
#314 = DIRECTION( '', ( 0.000000000000000, 0.000000000000000, 1.00000000000000 ) );
#315 = DIRECTION( '', ( 1.00000000000000, 0.000000000000000, 0.000000000000000 ) );
#316 = CARTESIAN_POINT( '', ( 0.000000000000000, 0.000000000000000, 0.000000000000000 ) );
#317 = DIRECTION( '', ( 0.000000000000000, 0.000000000000000, -1.00000000000000 ) );
#318 = DIRECTION( '', ( -1.00000000000000, 0.000000000000000, 0.000000000000000 ) );
#319 = CARTESIAN_POINT( '', ( 0.000000000000000, 0.000000000000000, 6.68812042255117 ) );
#320 = DIRECTION( '', ( 0.000000000000000, 0.000000000000000, -1.00000000000000 ) );
#321 = DIRECTION( '', ( -1.00000000000000, 0.000000000000000, 0.000000000000000 ) );
#322 = CARTESIAN_POINT( '', ( 0.000000000000000, 0.000000000000000, 19.2000000000000 ) );
#323 = DIRECTION( '', ( 0.000000000000000, 0.000000000000000, -1.00000000000000 ) );
#324 = DIRECTION( '', ( -1.00000000000000, 0.000000000000000, 0.000000000000000 ) );
#325 = CARTESIAN_POINT( '', ( 0.000000000000000, 0.000000000000000, 20.5000000000000 ) );
#326 = DIRECTION( '', ( 0.000000000000000, 0.000000000000000, -1.00000000000000 ) );
#327 = DIRECTION( '', ( -1.00000000000000, 0.000000000000000, 0.000000000000000 ) );
ENDSEC;
END-ISO-10303-21;
